ISO-10303-21;
HEADER;
FILE_DESCRIPTION (( 'STEP AP203' ),
    '1' );
FILE_NAME ('250814 STEP 3-400775-00_12010.STEP',
    '2025-08-14T06:55:26',
    ( '' ),
    ( '' ),
    'SwSTEP 2.0',
    'SolidWorks 2024',
    '' );
FILE_SCHEMA (( 'CONFIG_CONTROL_DESIGN' ));
ENDSEC;

DATA;
#1 = DIRECTION ( 'NONE',  ( -0.000000000000000000, -1.000000000000000000, -0.000000000000000000 ) ) ;
#2 = PLANE ( 'NONE',  #79 ) ;
#3 = FACE_OUTER_BOUND ( 'NONE', #148, .T. ) ;
#4 = EDGE_CURVE ( 'NONE', #9, #9, #63, .T. ) ;
#5 = EDGE_CURVE ( 'NONE', #186, #186, #128, .T. ) ;
#6 = ORIENTED_EDGE ( 'NONE', *, *, #67, .F. ) ;
#7 = CIRCLE ( 'NONE', #22, 15.00000000000000000 ) ;
#8 = FACE_OUTER_BOUND ( 'NONE', #302, .T. ) ;
#9 = VERTEX_POINT ( 'NONE', #243 ) ;
#10 = VERTEX_POINT ( 'NONE', #316 ) ;
#11 = ORIENTED_EDGE ( 'NONE', *, *, #276, .T. ) ;
#12 = DIRECTION ( 'NONE',  ( 0.000000000000000000, 0.000000000000000000, -1.000000000000000000 ) ) ;
#13 = APPROVAL_ROLE ( '' ) ;
#14 = PERSON_AND_ORGANIZATION_ROLE ( 'creator' ) ;
#15 = ADVANCED_FACE ( 'NONE', ( #324, #90 ), #113, .T. ) ;
#16 = COORDINATED_UNIVERSAL_TIME_OFFSET ( 2, 0, .AHEAD. ) ;
#17 = LOCAL_TIME ( 9, 55, 26.00000000000000000, #167 ) ;
#18 = DIRECTION ( 'NONE',  ( 0.000000000000000000, 0.000000000000000000, -1.000000000000000000 ) ) ;
#19 = EDGE_CURVE ( 'NONE', #217, #217, #93, .T. ) ;
#20 = ORIENTED_EDGE ( 'NONE', *, *, #134, .F. ) ;
#21 = DIRECTION ( 'NONE',  ( 0.000000000000000000, 0.000000000000000000, -1.000000000000000000 ) ) ;
#22 = AXIS2_PLACEMENT_3D ( 'NONE', #46, #257, #237 ) ;
#23 = CARTESIAN_POINT ( 'NONE',  ( 0.000000000000000000, 17.39900000000000446, 0.000000000000000000 ) ) ;
#24 = DIRECTION ( 'NONE',  ( 0.000000000000000000, -0.000000000000000000, 1.000000000000000000 ) ) ;
#25 = FACE_OUTER_BOUND ( 'NONE', #141, .T. ) ;
#26 = CIRCLE ( 'NONE', #279, 18.99920000000000542 ) ;
#27 = DIRECTION ( 'NONE',  ( -0.000000000000000000, -1.000000000000000000, -0.000000000000000000 ) ) ;
#28 = DIRECTION ( 'NONE',  ( -0.000000000000000000, -1.000000000000000000, -0.000000000000000000 ) ) ;
#29 = CC_DESIGN_PERSON_AND_ORGANIZATION_ASSIGNMENT ( #58, #199, ( #89 ) ) ;
#30 = ORIENTED_EDGE ( 'NONE', *, *, #268, .T. ) ;
#31 = CARTESIAN_POINT ( 'NONE',  ( 0.000000000000000000, 17.39900000000000446, -37.99840000000000373 ) ) ;
#32 = CARTESIAN_POINT ( 'NONE',  ( 0.000000000000000000, 17.39900000000000446, 34.49320000000000874 ) ) ;
#33 = CARTESIAN_POINT ( 'NONE',  ( 0.000000000000000000, 17.39900000000000446, -30.16249999999999787 ) ) ;
#34 = FACE_OUTER_BOUND ( 'NONE', #41, .T. ) ;
#35 = AXIS2_PLACEMENT_3D ( 'NONE', #54, #27, #178 ) ;
#36 = APPROVAL_DATE_TIME ( #60, #149 ) ;
#37 = DATE_AND_TIME ( #271, #218 ) ;
#38 = COORDINATED_UNIVERSAL_TIME_OFFSET ( 2, 0, .AHEAD. ) ;
#39 = ORIENTED_EDGE ( 'NONE', *, *, #185, .F. ) ;
#40 = DATE_TIME_ROLE ( 'creation_date' ) ;
#41 = EDGE_LOOP ( 'NONE', ( #119 ) ) ;
#42 = EDGE_LOOP ( 'NONE', ( #39 ) ) ;
#43 = EDGE_LOOP ( 'NONE', ( #81 ) ) ;
#44 = FACE_OUTER_BOUND ( 'NONE', #317, .T. ) ;
#45 = DIRECTION ( 'NONE',  ( -0.000000000000000000, -1.000000000000000000, -0.000000000000000000 ) ) ;
#46 = CARTESIAN_POINT ( 'NONE',  ( 0.000000000000000000, 17.39899999999999736, 0.000000000000000000 ) ) ;
#47 = FACE_OUTER_BOUND ( 'NONE', #323, .T. ) ;
#48 = CIRCLE ( 'NONE', #300, 15.00000000000000000 ) ;
#49 = DIRECTION ( 'NONE',  ( 0.000000000000000000, 1.000000000000000000, 0.000000000000000000 ) ) ;
#50 = PLANE ( 'NONE',  #225 ) ;
#51 = CARTESIAN_POINT ( 'NONE',  ( 0.000000000000000000, 4.698999999999999844, -37.99840000000000373 ) ) ;
#52 = APPROVAL_PERSON_ORGANIZATION ( #248, #153, #13 ) ;
#53 = VERTEX_POINT ( 'NONE', #215 ) ;
#54 = CARTESIAN_POINT ( 'NONE',  ( 0.000000000000000000, 17.39900000000000446, 0.000000000000000000 ) ) ;
#55 = DIRECTION ( 'NONE',  ( 0.000000000000000000, 1.000000000000000000, 0.000000000000000000 ) ) ;
#56 = ADVANCED_FACE ( 'NONE', ( #307, #71 ), #233, .T. ) ;
#57 = AXIS2_PLACEMENT_3D ( 'NONE', #101, #267, #75 ) ;
#58 = PERSON_AND_ORGANIZATION ( #143, #253 ) ;
#59 = ORIENTED_EDGE ( 'NONE', *, *, #4, .T. ) ;
#60 = DATE_AND_TIME ( #145, #202 ) ;
#61 = EDGE_LOOP ( 'NONE', ( #6 ) ) ;
#62 = DATE_AND_TIME ( #112, #68 ) ;
#63 = CIRCLE ( 'NONE', #258, 18.99920000000000186 ) ;
#64 = ORIENTED_EDGE ( 'NONE', *, *, #121, .F. ) ;
#65 = EDGE_LOOP ( 'NONE', ( #168 ) ) ;
#66 = DIRECTION ( 'NONE',  ( 0.000000000000000000, -1.000000000000000000, -0.000000000000000000 ) ) ;
#67 = EDGE_CURVE ( 'NONE', #10, #10, #48, .T. ) ;
#68 = LOCAL_TIME ( 9, 55, 26.00000000000000000, #16 ) ;
#69 = CARTESIAN_POINT ( 'NONE',  ( 18.99920000000000186, 4.698999999999999844, 0.000000000000000000 ) ) ;
#70 = FACE_BOUND ( 'NONE', #61, .T. ) ;
#71 = FACE_BOUND ( 'NONE', #228, .T. ) ;
#72 = EDGE_CURVE ( 'NONE', #264, #264, #166, .T. ) ;
#73 = CYLINDRICAL_SURFACE ( 'NONE', #179, 30.16249999999999787 ) ;
#74 = AXIS2_PLACEMENT_3D ( 'NONE', #234, #306, #260 ) ;
#75 = DIRECTION ( 'NONE',  ( 0.000000000000000000, 0.000000000000000000, -1.000000000000000000 ) ) ;
#76 =( NAMED_UNIT ( * ) SI_UNIT ( $, .STERADIAN. ) SOLID_ANGLE_UNIT ( ) );
#77 = VERTEX_POINT ( 'NONE', #33 ) ;
#78 = EDGE_LOOP ( 'NONE', ( #88 ) ) ;
#79 = AXIS2_PLACEMENT_3D ( 'NONE', #122, #66, #280 ) ;
#80 = FACE_BOUND ( 'NONE', #78, .T. ) ;
#81 = ORIENTED_EDGE ( 'NONE', *, *, #129, .F. ) ;
#82 = CYLINDRICAL_SURFACE ( 'NONE', #190, 15.00000000000000000 ) ;
#83 = CC_DESIGN_PERSON_AND_ORGANIZATION_ASSIGNMENT ( #301, #173, ( #111 ) ) ;
#84 = AXIS2_PLACEMENT_3D ( 'NONE', #304, #152, #208 ) ;
#85 = SHAPE_DEFINITION_REPRESENTATION ( #130, #281 ) ;
#86 = PERSON_AND_ORGANIZATION_ROLE ( 'design_owner' ) ;
#87 = DATE_AND_TIME ( #110, #17 ) ;
#88 = ORIENTED_EDGE ( 'NONE', *, *, #201, .T. ) ;
#89 = SECURITY_CLASSIFICATION ( '', '', #229 ) ;
#90 = FACE_OUTER_BOUND ( 'NONE', #163, .T. ) ;
#91 = CARTESIAN_POINT ( 'NONE',  ( 0.000000000000000000, 4.698999999999999844, 0.000000000000000000 ) ) ;
#92 = PLANE ( 'NONE',  #183 ) ;
#93 = CIRCLE ( 'NONE', #35, 37.99840000000000373 ) ;
#94 = DIRECTION ( 'NONE',  ( 0.000000000000000000, -1.000000000000000000, -0.000000000000000000 ) ) ;
#95 = CARTESIAN_POINT ( 'NONE',  ( 37.99840000000000373, 17.39900000000000446, 0.000000000000000000 ) ) ;
#96 = ADVANCED_FACE ( 'NONE', ( #236, #47 ), #126, .T. ) ;
#97 = FACE_OUTER_BOUND ( 'NONE', #42, .T. ) ;
#98 = CARTESIAN_POINT ( 'NONE',  ( 37.99840000000000373, 17.39900000000000446, 0.000000000000000000 ) ) ;
#99 = APPROVAL_PERSON_ORGANIZATION ( #176, #108, #109 ) ;
#100 =( GEOMETRIC_REPRESENTATION_CONTEXT ( 3 ) GLOBAL_UNCERTAINTY_ASSIGNED_CONTEXT ( ( #193 ) ) GLOBAL_UNIT_ASSIGNED_CONTEXT ( ( #194, #239, #76 ) ) REPRESENTATION_CONTEXT ( 'NONE', 'WORKASPACE' ) );
#101 = CARTESIAN_POINT ( 'NONE',  ( 0.000000000000000000, 0.000000000000000000, 0.000000000000000000 ) ) ;
#102 = DIRECTION ( 'NONE',  ( 0.000000000000000000, 0.000000000000000000, -1.000000000000000000 ) ) ;
#103 = FACE_BOUND ( 'NONE', #146, .T. ) ;
#104 = ORIENTED_EDGE ( 'NONE', *, *, #19, .F. ) ;
#105 = LOCAL_TIME ( 9, 55, 26.00000000000000000, #293 ) ;
#106 = DESIGN_CONTEXT ( 'detailed design', #327, 'design' ) ;
#107 = DIRECTION ( 'NONE',  ( 0.000000000000000000, -0.000000000000000000, 1.000000000000000000 ) ) ;
#108 = APPROVAL ( #298, 'UNSPECIFIED' ) ;
#109 = APPROVAL_ROLE ( '' ) ;
#110 = CALENDAR_DATE ( 2025, 14, 8 ) ;
#111 = PRODUCT_DEFINITION_FORMATION_WITH_SPECIFIED_SOURCE ( 'ANY', '', #138, .NOT_KNOWN. ) ;
#112 = CALENDAR_DATE ( 2025, 14, 8 ) ;
#113 = CYLINDRICAL_SURFACE ( 'NONE', #247, 37.99840000000000373 ) ;
#114 = PERSON_AND_ORGANIZATION ( #143, #253 ) ;
#115 = ORIENTED_EDGE ( 'NONE', *, *, #4, .F. ) ;
#116 = APPROVAL_STATUS ( 'not_yet_approved' ) ;
#117 = CARTESIAN_POINT ( 'NONE',  ( 0.000000000000000000, 4.698999999999999844, 0.000000000000000000 ) ) ;
#118 = CC_DESIGN_SECURITY_CLASSIFICATION ( #89, ( #111 ) ) ;
#119 = ORIENTED_EDGE ( 'NONE', *, *, #67, .T. ) ;
#120 = ADVANCED_FACE ( 'NONE', ( #44, #328 ), #255, .T. ) ;
#121 = EDGE_CURVE ( 'NONE', #131, #131, #254, .T. ) ;
#122 = CARTESIAN_POINT ( 'NONE',  ( 15.00000000000000000, -9.629649721936179265E-32, 0.000000000000000000 ) ) ;
#123 = FACE_OUTER_BOUND ( 'NONE', #272, .T. ) ;
#124 = AXIS2_PLACEMENT_3D ( 'NONE', #95, #326, #24 ) ;
#125 = FACE_OUTER_BOUND ( 'NONE', #43, .T. ) ;
#126 = CYLINDRICAL_SURFACE ( 'NONE', #284, 18.99920000000000186 ) ;
#127 = FACE_BOUND ( 'NONE', #187, .T. ) ;
#128 = CIRCLE ( 'NONE', #151, 37.99840000000000373 ) ;
#129 = EDGE_CURVE ( 'NONE', #77, #77, #231, .T. ) ;
#130 = PRODUCT_DEFINITION_SHAPE ( 'NONE', 'NONE',  #238 ) ;
#131 = VERTEX_POINT ( 'NONE', #269 ) ;
#132 = FACE_OUTER_BOUND ( 'NONE', #219, .T. ) ;
#133 = ORIENTED_EDGE ( 'NONE', *, *, #5, .F. ) ;
#134 = EDGE_CURVE ( 'NONE', #220, #220, #212, .T. ) ;
#135 = PLANE ( 'NONE',  #273 ) ;
#136 = AXIS2_PLACEMENT_3D ( 'NONE', #91, #49, #261 ) ;
#137 = COORDINATED_UNIVERSAL_TIME_OFFSET ( 2, 0, .AHEAD. ) ;
#138 = PRODUCT ( '250814 STEP 3-400775-00_12010', '250814 STEP 3-400775-00_12010', '', ( #221 ) ) ;
#139 = CARTESIAN_POINT ( 'NONE',  ( 0.000000000000000000, 0.000000000000000000, 0.000000000000000000 ) ) ;
#140 = CALENDAR_DATE ( 2025, 14, 8 ) ;
#141 = EDGE_LOOP ( 'NONE', ( #289 ) ) ;
#142 = CIRCLE ( 'NONE', #57, 18.99920000000000186 ) ;
#143 = PERSON ( 'UNSPECIFIED', 'UNSPECIFIED', 'UNSPECIFIED', ('UNSPECIFIED'), ('UNSPECIFIED'), ('UNSPECIFIED') ) ;
#144 = APPLICATION_CONTEXT ( 'configuration controlled 3d designs of mechanical parts and assemblies' ) ;
#145 = CALENDAR_DATE ( 2025, 14, 8 ) ;
#146 = EDGE_LOOP ( 'NONE', ( #297 ) ) ;
#147 = PERSON_AND_ORGANIZATION ( #143, #253 ) ;
#148 = EDGE_LOOP ( 'NONE', ( #191 ) ) ;
#149 = APPROVAL ( #116, 'UNSPECIFIED' ) ;
#150 = CARTESIAN_POINT ( 'NONE',  ( 0.000000000000000000, 0.000000000000000000, 0.000000000000000000 ) ) ;
#151 = AXIS2_PLACEMENT_3D ( 'NONE', #295, #250, #18 ) ;
#152 = DIRECTION ( 'NONE',  ( -0.000000000000000000, -1.000000000000000000, -0.000000000000000000 ) ) ;
#153 = APPROVAL ( #319, 'UNSPECIFIED' ) ;
#154 = FACE_OUTER_BOUND ( 'NONE', #240, .T. ) ;
#155 = FACE_BOUND ( 'NONE', #266, .T. ) ;
#156 = CC_DESIGN_APPROVAL ( #108, ( #238 ) ) ;
#157 = DIRECTION ( 'NONE',  ( 0.000000000000000000, 0.000000000000000000, -1.000000000000000000 ) ) ;
#158 = CARTESIAN_POINT ( 'NONE',  ( 0.000000000000000000, 9.397999999999999687, 0.000000000000000000 ) ) ;
#159 = CARTESIAN_POINT ( 'NONE',  ( 18.99920000000000542, 17.39899999999999736, 0.000000000000000000 ) ) ;
#160 = CC_DESIGN_PERSON_AND_ORGANIZATION_ASSIGNMENT ( #147, #251, ( #111 ) ) ;
#161 = CARTESIAN_POINT ( 'NONE',  ( 0.000000000000000000, 17.39900000000000091, 0.000000000000000000 ) ) ;
#162 = AXIS2_PLACEMENT_3D ( 'NONE', #182, #308, #157 ) ;
#163 = EDGE_LOOP ( 'NONE', ( #133 ) ) ;
#164 = ADVANCED_FACE ( 'NONE', ( #303, #70 ), #2, .T. ) ;
#165 = DIRECTION ( 'NONE',  ( -0.000000000000000000, -1.000000000000000000, -0.000000000000000000 ) ) ;
#166 = CIRCLE ( 'NONE', #84, 34.49320000000000874 ) ;
#167 = COORDINATED_UNIVERSAL_TIME_OFFSET ( 2, 0, .AHEAD. ) ;
#168 = ORIENTED_EDGE ( 'NONE', *, *, #19, .T. ) ;
#169 = ADVANCED_FACE ( 'NONE', ( #123, #155 ), #92, .T. ) ;
#170 = DIRECTION ( 'NONE',  ( 0.000000000000000000, 0.000000000000000000, 1.000000000000000000 ) ) ;
#171 = EDGE_LOOP ( 'NONE', ( #214 ) ) ;
#172 = CC_DESIGN_APPROVAL ( #153, ( #89 ) ) ;
#173 = PERSON_AND_ORGANIZATION_ROLE ( 'creator' ) ;
#174 = EDGE_LOOP ( 'NONE', ( #204 ) ) ;
#175 = CC_DESIGN_PERSON_AND_ORGANIZATION_ASSIGNMENT ( #114, #14, ( #238 ) ) ;
#176 = PERSON_AND_ORGANIZATION ( #143, #253 ) ;
#177 = ORIENTED_EDGE ( 'NONE', *, *, #121, .T. ) ;
#178 = DIRECTION ( 'NONE',  ( 0.000000000000000000, 0.000000000000000000, -1.000000000000000000 ) ) ;
#179 = AXIS2_PLACEMENT_3D ( 'NONE', #209, #45, #184 ) ;
#180 = DIRECTION ( 'NONE',  ( 0.000000000000000000, 0.000000000000000000, -1.000000000000000000 ) ) ;
#181 = DIRECTION ( 'NONE',  ( 0.000000000000000000, 0.000000000000000000, -1.000000000000000000 ) ) ;
#182 = CARTESIAN_POINT ( 'NONE',  ( 18.99920000000000186, 4.698999999999999844, 0.000000000000000000 ) ) ;
#183 = AXIS2_PLACEMENT_3D ( 'NONE', #69, #94, #181 ) ;
#184 = DIRECTION ( 'NONE',  ( 0.000000000000000000, 0.000000000000000000, -1.000000000000000000 ) ) ;
#185 = EDGE_CURVE ( 'NONE', #288, #288, #270, .T. ) ;
#186 = VERTEX_POINT ( 'NONE', #51 ) ;
#187 = EDGE_LOOP ( 'NONE', ( #200 ) ) ;
#188 = DIRECTION ( 'NONE',  ( 0.000000000000000000, -0.000000000000000000, 1.000000000000000000 ) ) ;
#189 = CARTESIAN_POINT ( 'NONE',  ( 0.000000000000000000, 9.397999999999999687, -30.16249999999999787 ) ) ;
#190 = AXIS2_PLACEMENT_3D ( 'NONE', #292, #165, #12 ) ;
#191 = ORIENTED_EDGE ( 'NONE', *, *, #268, .F. ) ;
#192 = DIRECTION ( 'NONE',  ( 0.000000000000000000, 1.000000000000000000, 0.000000000000000000 ) ) ;
#193 = UNCERTAINTY_MEASURE_WITH_UNIT (LENGTH_MEASURE( 1.000000000000000082E-05 ), #194, 'distance_accuracy_value', 'NONE');
#194 =( LENGTH_UNIT ( ) NAMED_UNIT ( * ) SI_UNIT ( .MILLI., .METRE. ) );
#195 = APPLICATION_PROTOCOL_DEFINITION ( 'international standard', 'config_control_design', 1994, #144 ) ;
#196 = DIRECTION ( 'NONE',  ( -0.000000000000000000, -1.000000000000000000, -0.000000000000000000 ) ) ;
#197 = DIRECTION ( 'NONE',  ( 1.000000000000000000, 0.000000000000000000, 0.000000000000000000 ) ) ;
#198 = EDGE_LOOP ( 'NONE', ( #59 ) ) ;
#199 = PERSON_AND_ORGANIZATION_ROLE ( 'classification_officer' ) ;
#200 = ORIENTED_EDGE ( 'NONE', *, *, #129, .T. ) ;
#201 = EDGE_CURVE ( 'NONE', #318, #318, #7, .T. ) ;
#202 = LOCAL_TIME ( 9, 55, 26.00000000000000000, #137 ) ;
#203 = PERSON_AND_ORGANIZATION ( #143, #253 ) ;
#204 = ORIENTED_EDGE ( 'NONE', *, *, #72, .T. ) ;
#205 = MANIFOLD_SOLID_BREP ( 'Split Line1', #309 ) ;
#206 = DIRECTION ( 'NONE',  ( -0.000000000000000000, -1.000000000000000000, -0.000000000000000000 ) ) ;
#207 = DIRECTION ( 'NONE',  ( 0.000000000000000000, 0.000000000000000000, -1.000000000000000000 ) ) ;
#208 = DIRECTION ( 'NONE',  ( 0.000000000000000000, 0.000000000000000000, 1.000000000000000000 ) ) ;
#209 = CARTESIAN_POINT ( 'NONE',  ( 0.000000000000000000, 0.000000000000000000, 0.000000000000000000 ) ) ;
#210 = CARTESIAN_POINT ( 'NONE',  ( 0.000000000000000000, 0.000000000000000000, 0.000000000000000000 ) ) ;
#211 = CC_DESIGN_DATE_AND_TIME_ASSIGNMENT ( #321, #40, ( #238 ) ) ;
#212 = CIRCLE ( 'NONE', #74, 30.16249999999999787 ) ;
#213 = CARTESIAN_POINT ( 'NONE',  ( 0.000000000000000000, 17.39900000000000091, -18.99920000000000542 ) ) ;
#214 = ORIENTED_EDGE ( 'NONE', *, *, #72, .F. ) ;
#215 = CARTESIAN_POINT ( 'NONE',  ( 0.000000000000000000, 0.000000000000000000, -18.99920000000000186 ) ) ;
#216 = DIRECTION ( 'NONE',  ( -0.000000000000000000, -1.000000000000000000, -0.000000000000000000 ) ) ;
#217 = VERTEX_POINT ( 'NONE', #31 ) ;
#218 = LOCAL_TIME ( 9, 55, 26.00000000000000000, #38 ) ;
#219 = EDGE_LOOP ( 'NONE', ( #20 ) ) ;
#220 = VERTEX_POINT ( 'NONE', #189 ) ;
#221 = MECHANICAL_CONTEXT ( 'NONE', #144, 'mechanical' ) ;
#222 = CC_DESIGN_PERSON_AND_ORGANIZATION_ASSIGNMENT ( #203, #86, ( #138 ) ) ;
#223 = ADVANCED_FACE ( 'NONE', ( #25, #125 ), #73, .F. ) ;
#224 = APPROVAL_DATE_TIME ( #37, #153 ) ;
#225 = AXIS2_PLACEMENT_3D ( 'NONE', #313, #55, #188 ) ;
#226 = APPROVAL_ROLE ( '' ) ;
#227 = APPLICATION_PROTOCOL_DEFINITION ( 'international standard', 'config_control_design', 1994, #327 ) ;
#228 = EDGE_LOOP ( 'NONE', ( #115 ) ) ;
#229 = SECURITY_CLASSIFICATION_LEVEL ( 'unclassified' ) ;
#230 = DIRECTION ( 'NONE',  ( 0.000000000000000000, 0.000000000000000000, -1.000000000000000000 ) ) ;
#231 = CIRCLE ( 'NONE', #235, 30.16249999999999787 ) ;
#232 = DIRECTION ( 'NONE',  ( -0.000000000000000000, -1.000000000000000000, -0.000000000000000000 ) ) ;
#233 = PLANE ( 'NONE',  #162 ) ;
#234 = CARTESIAN_POINT ( 'NONE',  ( 0.000000000000000000, 9.397999999999999687, 0.000000000000000000 ) ) ;
#235 = AXIS2_PLACEMENT_3D ( 'NONE', #23, #206, #180 ) ;
#236 = FACE_OUTER_BOUND ( 'NONE', #198, .T. ) ;
#237 = DIRECTION ( 'NONE',  ( 0.000000000000000000, 0.000000000000000000, -1.000000000000000000 ) ) ;
#238 = PRODUCT_DEFINITION ( 'UNKNOWN', '', #111, #106 ) ;
#239 =( NAMED_UNIT ( * ) PLANE_ANGLE_UNIT ( ) SI_UNIT ( $, .RADIAN. ) );
#240 = EDGE_LOOP ( 'NONE', ( #30 ) ) ;
#241 = AXIS2_PLACEMENT_3D ( 'NONE', #98, #192, #107 ) ;
#242 = VERTEX_POINT ( 'NONE', #213 ) ;
#243 = CARTESIAN_POINT ( 'NONE',  ( 0.000000000000000000, 4.698999999999999844, -18.99920000000000186 ) ) ;
#244 = DIRECTION ( 'NONE',  ( 0.000000000000000000, 1.000000000000000000, 0.000000000000000000 ) ) ;
#245 = EDGE_LOOP ( 'NONE', ( #11 ) ) ;
#246 = FACE_OUTER_BOUND ( 'NONE', #171, .T. ) ;
#247 = AXIS2_PLACEMENT_3D ( 'NONE', #150, #252, #21 ) ;
#248 = PERSON_AND_ORGANIZATION ( #143, #253 ) ;
#249 = CC_DESIGN_DATE_AND_TIME_ASSIGNMENT ( #87, #274, ( #89 ) ) ;
#250 = DIRECTION ( 'NONE',  ( -0.000000000000000000, -1.000000000000000000, -0.000000000000000000 ) ) ;
#251 = PERSON_AND_ORGANIZATION_ROLE ( 'design_supplier' ) ;
#252 = DIRECTION ( 'NONE',  ( -0.000000000000000000, -1.000000000000000000, -0.000000000000000000 ) ) ;
#253 = ORGANIZATION ( 'UNSPECIFIED', 'UNSPECIFIED', '' ) ;
#254 = CIRCLE ( 'NONE', #136, 34.49320000000000874 ) ;
#255 = PLANE ( 'NONE',  #124 ) ;
#256 = CYLINDRICAL_SURFACE ( 'NONE', #263, 18.99920000000000186 ) ;
#257 = DIRECTION ( 'NONE',  ( -0.000000000000000000, -1.000000000000000000, -0.000000000000000000 ) ) ;
#258 = AXIS2_PLACEMENT_3D ( 'NONE', #117, #196, #230 ) ;
#259 = ADVANCED_FACE ( 'NONE', ( #154, #97 ), #256, .T. ) ;
#260 = DIRECTION ( 'NONE',  ( 0.000000000000000000, 0.000000000000000000, -1.000000000000000000 ) ) ;
#261 = DIRECTION ( 'NONE',  ( 0.000000000000000000, 0.000000000000000000, -1.000000000000000000 ) ) ;
#262 = CARTESIAN_POINT ( 'NONE',  ( 0.000000000000000000, 17.39899999999999736, -15.00000000000000000 ) ) ;
#263 = AXIS2_PLACEMENT_3D ( 'NONE', #210, #232, #265 ) ;
#264 = VERTEX_POINT ( 'NONE', #32 ) ;
#265 = DIRECTION ( 'NONE',  ( 0.000000000000000000, 0.000000000000000000, -1.000000000000000000 ) ) ;
#266 = EDGE_LOOP ( 'NONE', ( #177 ) ) ;
#267 = DIRECTION ( 'NONE',  ( -0.000000000000000000, -1.000000000000000000, -0.000000000000000000 ) ) ;
#268 = EDGE_CURVE ( 'NONE', #242, #242, #26, .T. ) ;
#269 = CARTESIAN_POINT ( 'NONE',  ( 0.000000000000000000, 4.698999999999999844, -34.49320000000000874 ) ) ;
#270 = CIRCLE ( 'NONE', #287, 18.99920000000000186 ) ;
#271 = CALENDAR_DATE ( 2025, 14, 8 ) ;
#272 = EDGE_LOOP ( 'NONE', ( #275 ) ) ;
#273 = AXIS2_PLACEMENT_3D ( 'NONE', #159, #244, #310 ) ;
#274 = DATE_TIME_ROLE ( 'classification_date' ) ;
#275 = ORIENTED_EDGE ( 'NONE', *, *, #5, .T. ) ;
#276 = EDGE_CURVE ( 'NONE', #53, #53, #142, .T. ) ;
#277 = ADVANCED_FACE ( 'NONE', ( #34, #8 ), #82, .F. ) ;
#278 = CARTESIAN_POINT ( 'NONE',  ( 0.000000000000000000, 0.000000000000000000, 0.000000000000000000 ) ) ;
#279 = AXIS2_PLACEMENT_3D ( 'NONE', #161, #216, #102 ) ;
#280 = DIRECTION ( 'NONE',  ( 0.000000000000000000, 0.000000000000000000, -1.000000000000000000 ) ) ;
#281 = ADVANCED_BREP_SHAPE_REPRESENTATION ( '250814 STEP 3-400775-00_12010', ( #205, #320 ), #100 ) ;
#282 = DIRECTION ( 'NONE',  ( 0.000000000000000000, 0.000000000000000000, -1.000000000000000000 ) ) ;
#283 = DIRECTION ( 'NONE',  ( -0.000000000000000000, -1.000000000000000000, -0.000000000000000000 ) ) ;
#284 = AXIS2_PLACEMENT_3D ( 'NONE', #278, #28, #285 ) ;
#285 = DIRECTION ( 'NONE',  ( 0.000000000000000000, 0.000000000000000000, -1.000000000000000000 ) ) ;
#286 = PLANE ( 'NONE',  #241 ) ;
#287 = AXIS2_PLACEMENT_3D ( 'NONE', #158, #1, #282 ) ;
#288 = VERTEX_POINT ( 'NONE', #290 ) ;
#289 = ORIENTED_EDGE ( 'NONE', *, *, #134, .T. ) ;
#290 = CARTESIAN_POINT ( 'NONE',  ( 0.000000000000000000, 9.397999999999999687, -18.99920000000000186 ) ) ;
#291 = ADVANCED_FACE ( 'NONE', ( #103, #132 ), #50, .T. ) ;
#292 = CARTESIAN_POINT ( 'NONE',  ( 0.000000000000000000, 0.000000000000000000, 0.000000000000000000 ) ) ;
#293 = COORDINATED_UNIVERSAL_TIME_OFFSET ( 2, 0, .AHEAD. ) ;
#294 = PRODUCT_RELATED_PRODUCT_CATEGORY ( 'detail', '', ( #138 ) ) ;
#295 = CARTESIAN_POINT ( 'NONE',  ( 0.000000000000000000, 4.698999999999999844, 0.000000000000000000 ) ) ;
#296 = PERSON_AND_ORGANIZATION ( #143, #253 ) ;
#297 = ORIENTED_EDGE ( 'NONE', *, *, #185, .T. ) ;
#298 = APPROVAL_STATUS ( 'not_yet_approved' ) ;
#299 = ORIENTED_EDGE ( 'NONE', *, *, #276, .F. ) ;
#300 = AXIS2_PLACEMENT_3D ( 'NONE', #329, #283, #207 ) ;
#301 = PERSON_AND_ORGANIZATION ( #143, #253 ) ;
#302 = EDGE_LOOP ( 'NONE', ( #314 ) ) ;
#303 = FACE_OUTER_BOUND ( 'NONE', #245, .T. ) ;
#304 = CARTESIAN_POINT ( 'NONE',  ( 0.000000000000000000, 17.39900000000000446, 0.000000000000000000 ) ) ;
#305 = CC_DESIGN_APPROVAL ( #149, ( #111 ) ) ;
#306 = DIRECTION ( 'NONE',  ( -0.000000000000000000, -1.000000000000000000, -0.000000000000000000 ) ) ;
#307 = FACE_OUTER_BOUND ( 'NONE', #311, .T. ) ;
#308 = DIRECTION ( 'NONE',  ( 0.000000000000000000, -1.000000000000000000, -0.000000000000000000 ) ) ;
#309 = CLOSED_SHELL ( 'NONE', ( #169, #120, #277, #164, #96, #56, #15, #325, #223, #291, #259, #312 ) ) ;
#310 = DIRECTION ( 'NONE',  ( 0.000000000000000000, -0.000000000000000000, 1.000000000000000000 ) ) ;
#311 = EDGE_LOOP ( 'NONE', ( #64 ) ) ;
#312 = ADVANCED_FACE ( 'NONE', ( #80, #3 ), #135, .T. ) ;
#313 = CARTESIAN_POINT ( 'NONE',  ( 18.99920000000000186, 9.397999999999999687, 0.000000000000000000 ) ) ;
#314 = ORIENTED_EDGE ( 'NONE', *, *, #201, .F. ) ;
#315 = APPROVAL_PERSON_ORGANIZATION ( #296, #149, #226 ) ;
#316 = CARTESIAN_POINT ( 'NONE',  ( 0.000000000000000000, -1.925929944387235853E-31, -15.00000000000000000 ) ) ;
#317 = EDGE_LOOP ( 'NONE', ( #104 ) ) ;
#318 = VERTEX_POINT ( 'NONE', #262 ) ;
#319 = APPROVAL_STATUS ( 'not_yet_approved' ) ;
#320 = AXIS2_PLACEMENT_3D ( 'NONE', #139, #170, #197 ) ;
#321 = DATE_AND_TIME ( #140, #105 ) ;
#322 = APPROVAL_DATE_TIME ( #62, #108 ) ;
#323 = EDGE_LOOP ( 'NONE', ( #299 ) ) ;
#324 = FACE_OUTER_BOUND ( 'NONE', #65, .T. ) ;
#325 = ADVANCED_FACE ( 'NONE', ( #246, #127 ), #286, .T. ) ;
#326 = DIRECTION ( 'NONE',  ( 0.000000000000000000, 1.000000000000000000, 0.000000000000000000 ) ) ;
#327 = APPLICATION_CONTEXT ( 'configuration controlled 3d designs of mechanical parts and assemblies' ) ;
#328 = FACE_BOUND ( 'NONE', #174, .T. ) ;
#329 = CARTESIAN_POINT ( 'NONE',  ( 0.000000000000000000, -1.925929944387235853E-31, 0.000000000000000000 ) ) ;
ENDSEC;
END-ISO-10303-21;
